1. This site uses cookies. By continuing to use this site, you are agreeing to our use of cookies. Learn More.

3 Doors Down Here With Out You Nota

Konusu 'Akord' forumundadır ve Aşk'a İnanmışt'ı tarafından 3 Nisan 2016 başlatılmıştır.

  1. Aşk'a İnanmışt'ı

    Aşk'a İnanmışt'ı Genel Yönetici Staff Member

    Katılım:
    28 Mart 2008
    Mesajlar:
    21.835
    Beğenilen Mesajları:
    2.135
    Here With Out You
    e--------------------------------------------------
    B------3----2---2--3---------------------2---------
    G-----4-4----4---4--4---------0--------2--2--------
    D----4---4----4------4------0---0-----2----2-------
    A---2-----------------0---2------0---0------0------
    E------------------------3-------------------------


    e--------------------------------------------------
    B------3---2--2--3---------2---3---2--3/5----------
    G-----4-4---4--4--4-------2--2--2---2--------------
    D----4---4---4-----4-----2----2--2-----------------
    A---2---------------2---0--------------------------
    E--------------------------------------------------

    Chorus

    e------0----2/2-----3-2-0---------5/5---3---2--0---
    B-----3--3----------------3----2-------------------
    G----2----2------2------------2-2-----2---2---2--0-
    D---0------------------------2---------------------
    A---------------------------0----------------------
    E--------------------------------------------------



    e-------------0/0----0-----------------------------
    B-------3---------3---3----------------------2-----
    G------4--4--------4---4-----0------------2---2----
    D-----4----4------------0---0-------2/2--2-2---2---
    A---2--------------------------2--0-0/0------------
    E-------------------------3------------------------
     

Sayfayı Paylaş